IBX5981FE7FCD958 Latihan Fingering Untuk Gitar Dan Bass

Latihan Fingering Untuk Gitar Dan Bass

Leave a Comment
Guitarsquartz.net-Latihan fingering memiliki kekuatan serta kelincahan di fretboard. Latihan fingering juga cukup berguna untuk mengembalikan kekuatan jari setelah lama tidak bermain gitar atau bass.



Mengapa Harus Latihan Fingering?
Latihan fingering ini bisa dibilang sebagai olahraga untuk fretting hand kita. Namun kita tidak hanya  mengincar kekuatan, seperti atlit angkat besi, fingering berguna untuk menambah kelenturan serta kelincahan pada fret, seperti layaknya atlit gymnastic. Perlu diingat untuk gitar dan bass kita tidak harus menekan senar sangat kuat untuk menghasilkan nada. Sebaiknya gitar atau bass kita disetting sehingga memiliki jarak yang tidak terlalu jauh antara senar dan fretnya. 

Latihan fingering juga berguna untuk melatih finger independence. Maksudnya adalah jari tangan dapat bergerak bebas tanpa terkait atau tertahan jari lainnya. Bila kita jarang berlatih, biasanya begitu satu jari terangkat jari lainnya akan secara refleks ikut terangkat. Latihan ini berguna agar setiap jari memiliki kekuatan yang seimbang dan tidak terpengaruh jari lainnya.

Contoh Pola Latihan Fingering
Beberapa pola fingering ini dapat kita terapkan untuk gitar dan bass, karena bentuknya simetris serta tidak menggunakan nada dasar. Sambil kita melatih fingering, kita juga bisa sambil melatih picking hand kita.
Dibawah ini adalah contoh latihan fingering yang sudah sering digunakan :
1—2—3—4
1=telunjuk
2= tengah
3=manis
4=kelingking

Bila kita pindahkan ke tablatur maka akan tampak seperti ini :
E-------------------------------------------
B-------------------------------------------
G-------------------------------------------
D-------------------------------------------
A-------------------------------------------
E----1---2---3---4------------------------

Pola tadi kita mainkan naik dan turun fretboard, seperti ini:

E---------------------------------------------------------------------------------------------1---2---3---4----
B---------------------------------------------------------------------------1---2---3---4----------------------
G----------------------------------------------------------1---2---3---4---------------------------------------
D----------------------------------------1---2---3---4---------------------------------------------------------
A---------------------1---2---3---4-----------------------------------------------------------------------------
E----1---2---3---4----------------------------------------------------------------------------------------------

Kita bisa membuat variasi dari latihan diatas dengan mengubah permutasi dari penempatan jari kita, misalnya 4-3-2-1, 1-4-2-3, 3-1-4-2 dan sebagainya. Untuk bass, kita tinggal menghilangkan senar B dan E, selebihnya kita bisa menggunakan pola latihan yang sama.
Latihan ini tidak memerlukan permainan yang cepat, jadi kita tidak perlu menggunakan metronom. Boleh saja jika kita memainkkannya dengan tempo yang lebih cepat, walaupun itu bukan tujuan utama latihan ini.

Selain pola latihan yang seperti diatas, ada juga pola latihan fingering lain yang bisa kita gunakan untuk meningkatkan kelenturan jari saat berpindah senar :

E--------------------------------------------------------------------------------------------------   
B--------------------------------------------------------------------------------------------------    
G-------------------4----1------------------1---------------------------4-----------------------  
D---------------3------------2------------------2-------------------3---------------------------  
A----------2----------------------3------------------3-----------2------------------------------
E------1----------------------------4-------------------4----1----------------------------------   

Latihan ini cukup menyulitkan jari kita, karena berlawanan dengan pergerakan jari saat bermain gitar pada umumnya. Tapi latihan ini cukup memberikan tantangan untuk koordinasi tangan kanan dan kiri.

Beberapa Tips Saat Melatih Fingering
Ada beberapa hal yang harus kita perhatikan saat melatih fingering:

1. Gunakan Sound Clean
Sebaiknya menggunakan sound clean agar setiap detail petikan senar menjadi jelas serta kita dapat mengetahui seandainya ada petikan yang salah atau kurang kuat.

2. Turunkan Tempo
Setelah kita berlatih fingering cukup lama, mungkin kita tergoda untuk memainkannya di tempo yang lebih cepat. Tapi sebaiknya gunakan tempo sedang saja agar tujuan latihan ini dapat tercapai, yaitu kekuatan serta kelenturan untuk fretting hand.

3. Tidak Perlu Terlalu Lama
Latihan Fingering ini cukup 5-15 menit saja, tidak perlu terlalu lama. Lebih lama dari itu biasanya tangan dan jari kita akan pegal.

4. Lakukan latihan ini sebelum latihan lainnya
Lakukanlah latihan fingering di awal, sebelum latihan lagu, teori, scale, etc. Latihan fingering ini juga bisa berfungsi sebagai warming up sebelum manggung atau rekaman. 

Demikian artikel tentang Latihan Fingering Untuk Gitar Dan Bass. Silakan melihat home page Guitarsquartz.net ntuk berbagai artikel menarik lainnya. Until next time.



0 komentar: