IBX5981FE7FCD958 Tablature Melody Gitar Conon Rock By Jerryc

Tablature Melody Gitar Conon Rock By Jerryc

Leave a Comment
Tablature Melody Gitar Conon Rock By Jerryc

Tablature Melody Gitar Conon Rock By Jerryc

Guitarsquartz.net- Mungkin sebagian dari anda tidak asing lagi dengan lagu Canon atau Canon Rock yang sempat menjadi salah satu video terpopuler di situs video sharing Youtube. Nah bagi yang ingin bisa belajar bermain gitar molody conon rock, saya akan kasih tau cara belajar gitar canon rock, Silakan Anda bisa macam TAb di bawah ini.


E--14--12--10--9------------------10--12--14--12--15--14--12--10--12--10--9-----17-----|
b-----------------12--10--12--14---------------------------------------------------15--|
g--------------------------------------------------------------------------------------|
D--------------------------------------------------------------------------------------|
A -------------------------------------------------------------------------------------|
E -------------------------------------------------------------------------------------|


E-15--14--15--14--12--15--14-14--12--10----------------10--9-------------|
b-------------------------------------------12--10--8--------------------|
g------------------------------------------------------------------------|
D------------------------------------------------------------------------|
A -----------------------------------------------------------------------|
E -----------------------------------------------------------------------|


E---------------------------------------------------------------------------------------|
b---------------------------------------------------------------------------------------|
g--7----7-----7-------------------------------------------------------------------------|
D--7----7-----7----5--4---2----2----2----2---4---4---4---4------------------------------|
A -5---5-----5-------------0----0----0------------2---2---2---4--5---4--4--4------------|
E --------------------------------------------------------------------2--2--2---0--2----|


E--------------------------------------------7----------------------------------------------|
b-----------------------------------------------7--3----------------------------------------|
g-----------------------------------------------------4-------------------------------------|
D----------------------------7---7---7------------------------------------------------------|
A --5---5---5--5----2---------5---5---5--------------------5--2--4--5--4---7----------------|
E ---3---3---3--3-------------------------------------------3---------------5--7--9--10--9--|


E--------------------------------------------------------------------------------------|
b--------------------------------------------------------------------------------------|
g--7----7-----7------------------------------------------------------------------------|
D--7----7-----7----5--4---2----2----2----2---4---4---4---4-----------------------------|
A -5---5-----5-------------0----0----0------------2---2---2---4--5---4--4--4-----------|
E --------------------------------------------------------------------2--2--2---0--2---|


E--------------------------------------------7---------------------------------------|
b-----------------------------------------------7--3---------------------------------|
g-----------------------------------------------------4------------------------------|
D----------------------------7---7---7-----------------------------------------------|
A --5---5---5--5----2---------5---5---5--------------------5--2--4--5--4---7---------|
E --3---3---3--3-------------------------------------------3---------------5----4 <--|Whammy


E--14--12--10--12--10--9---------------------------10-------------------------9----|-bend
b------------------------10----------12---10----10----------12--12--10-------------|
g--------------------------------------------12--------11----------------12--------|
D----------------------------12--12------------------------------------------------|
A ---------------------------------------------------------------------------------|
E ---------------------------------------------------------------------------------|


E-10--12--14--15--14--12--10--12--10--9------17--19--17--15--19--17--14-------------|
b----------------------------------------15-----------------------------------------|
g-----------------------------------------------------------------------------------|
D-----------------------------------------------------------------------------------|
A ----------------------------------------------------------------------------------|
E ----------------------------------------------------------------------------------|


E-17--19--17--15--19--21------------------------------------------7-3-5----|
b--------------------------------------------------------------------------|
g--------------------------------------------------------------------------|
D--------------------------------------------------------------------------|
A ---------------------------5--4--5-------0--2--4--5---5-4-5--------------|
E --------------------------------------2----------------------------------|


E----------------------------------------------------------------------------------------|
b-7--7--8--7--5--8--7--------------------------------------------------------------------|
g----------------------9--7------------------7--6----------------------------------------|
D----------------------------9--7---9--7--5---------7------------------------------------|
A ------------------------------------------------------7-------------5--5---------2--4--|
E --------------------------------------------------------9--5-5------------2--5---------|


E---------------10--14--10------------------------------------|
b-----------12----------------12------10----------------------|
g-------11-------------------------12-------------------------|
D--12---------------------------------------------------------|
A ------------------------------------------------------------|
E ------------------------------------------------------------|


0 komentar: